  0
SECTION
  2
HEADER
  9
$ACADVER
  1
AC1015
  9
$ACADMAINTVER
 70
     6
  9
$DWGCODEPAGE
  3
ANSI_1254
  9
$INSBASE
 10
0.0
 20
0.0
 30
0.0
  9
$EXTMIN
 10
0.0
 20
0.0
 30
0.0
  9
$EXTMAX
 10
279.4
 20
215.9
 30
0.0
  9
$LIMMIN
 10
0.0
 20
0.0
  9
$LIMMAX
 10
279.4
 20
215.9
  9
$ORTHOMODE
 70
     0
  9
$REGENMODE
 70
     1
  9
$FILLMODE
 70
     1
  9
$QTEXTMODE
 70
     0
  9
$MIRRTEXT
 70
     1
  9
$LTSCALE
 40
1.0
  9
$ATTMODE
 70
     1
  9
$TEXTSIZE
 40
3.5
  9
$TRACEWID
 40
1.0
  9
$TEXTSTYLE
  7
Standard
  9
$CLAYER
  8
0
  9
$CELTYPE
  6
ByLayer
  9
$CECOLOR
 62
   256
  9
$CELTSCALE
 40
1.0
  9
$DISPSILH
 70
     0
  9
$DIMSCALE
 40
1.0
  9
$DIMASZ
 40
3.5
  9
$DIMEXO
 40
1.0
  9
$DIMDLI
 40
3.75
  9
$DIMRND
 40
0.0
  9
$DIMDLE
 40
0.0
  9
$DIMEXE
 40
1.0
  9
$DIMTP
 40
0.0
  9
$DIMTM
 40
0.0
  9
$DIMTXT
 40
3.5
  9
$DIMCEN
 40
2.5
  9
$DIMTSZ
 40
0.0
  9
$DIMTOL
 70
     0
  9
$DIMLIM
 70
     0
  9
$DIMTIH
 70
     1
  9
$DIMTOH
 70
     1
  9
$DIMSE1
 70
     0
  9
$DIMSE2
 70
     0
  9
$DIMTAD
 70
     1
  9
$DIMZIN
 70
     0
  9
$DIMBLK
  1

  9
$DIMASO
 70
     1
  9
$DIMSHO
 70
     1
  9
$DIMPOST
  1

  9
$DIMAPOST
  1

  9
$DIMALT
 70
     0
  9
$DIMALTD
 70
     3
  9
$DIMALTF
 40
0.0393700787
  9
$DIMLFAC
 40
1.0
  9
$DIMTOFL
 70
     1
  9
$DIMTVP
 40
0.0
  9
$DIMTIX
 70
     0
  9
$DIMSOXD
 70
     0
  9
$DIMSAH
 70
     0
  9
$DIMBLK1
  1

  9
$DIMBLK2
  1

  9
$DIMSTYLE
  2
ISO-25
  9
$DIMCLRD
 70
     0
  9
$DIMCLRE
 70
     0
  9
$DIMCLRT
 70
     0
  9
$DIMTFAC
 40
1.0
  9
$DIMGAP
 40
1.524
  9
$DIMJUST
 70
     0
  9
$DIMSD1
 70
     0
  9
$DIMSD2
 70
     0
  9
$DIMTOLJ
 70
     0
  9
$DIMTZIN
 70
     0
  9
$DIMALTZ
 70
     0
  9
$DIMALTTZ
 70
     0
  9
$DIMUPT
 70
     0
  9
$DIMDEC
 70
     2
  9
$DIMTDEC
 70
     2
  9
$DIMALTU
 70
     2
  9
$DIMALTTD
 70
     3
  9
$DIMTXSTY
  7
Standard
  9
$DIMAUNIT
 70
     0
  9
$DIMADEC
 70
     2
  9
$DIMALTRND
 40
0.0
  9
$DIMAZIN
 70
     0
  9
$DIMDSEP
 70
    44
  9
$DIMATFIT
 70
     3
  9
$DIMFRAC
 70
     0
  9
$DIMLDRBLK
  1

  9
$DIMLUNIT
 70
     2
  9
$DIMLWD
 70
    -2
  9
$DIMLWE
 70
    -2
  9
$DIMTMOVE
 70
     0
  9
$LUNITS
 70
     2
  9
$LUPREC
 70
     2
  9
$SKETCHINC
 40
1.0
  9
$FILLETRAD
 40
10.0
  9
$AUNITS
 70
     0
  9
$AUPREC
 70
     2
  9
$MENU
  1
.
  9
$ELEVATION
 40
0.0
  9
$PELEVATION
 40
0.0
  9
$THICKNESS
 40
0.0
  9
$LIMCHECK
 70
     0
  9
$CHAMFERA
 40
0.0
  9
$CHAMFERB
 40
0.0
  9
$CHAMFERC
 40
0.0
  9
$CHAMFERD
 40
0.0
  9
$SKPOLY
 70
     0
  9
$TDCREATE
 40
2459935.700602651
  9
$TDUCREATE
 40
2459935.575602651
  9
$TDUPDATE
 40
2459935.700602651
  9
$TDUUPDATE
 40
2459935.575602651
  9
$TDINDWG
 40
0.0000000116
  9
$TDUSRTIMER
 40
0.0000000116
  9
$USRTIMER
 70
     1
  9
$ANGBASE
 50
0.0
  9
$ANGDIR
 70
     0
  9
$PDMODE
 70
     0
  9
$PDSIZE
 40
-1.0
  9
$PLINEWID
 40
0.0
  9
$SPLFRAME
 70
     0
  9
$SPLINETYPE
 70
     6
  9
$SPLINESEGS
 70
     8
  9
$HANDSEED
  5
D2
  9
$SURFTAB1
 70
     6
  9
$SURFTAB2
 70
     6
  9
$SURFTYPE
 70
     6
  9
$SURFU
 70
     6
  9
$SURFV
 70
     6
  9
$UCSBASE
  2

  9
$UCSNAME
  2

  9
$UCSORG
 10
0.0
 20
0.0
 30
0.0
  9
$UCSXDIR
 10
1.0
 20
0.0
 30
0.0
  9
$UCSYDIR
 10
0.0
 20
1.0
 30
0.0
  9
$UCSORTHOREF
  2

  9
$UCSORTHOVIEW
 70
     0
  9
$UCSORGTOP
 10
0.0
 20
0.0
 30
0.0
  9
$UCSORGBOTTOM
 10
0.0
 20
0.0
 30
0.0
  9
$UCSORGLEFT
 10
0.0
 20
0.0
 30
0.0
  9
$UCSORGRIGHT
 10
0.0
 20
0.0
 30
0.0
  9
$UCSORGFRONT
 10
0.0
 20
0.0
 30
0.0
  9
$UCSORGBACK
 10
0.0
 20
0.0
 30
0.0
  9
$PUCSBASE
  2

  9
$PUCSNAME
  2

  9
$PUCSORG
 10
0.0
 20
0.0
 30
0.0
  9
$PUCSXDIR
 10
1.0
 20
0.0
 30
0.0
  9
$PUCSYDIR
 10
0.0
 20
1.0
 30
0.0
  9
$PUCSORTHOREF
  2

  9
$PUCSORTHOVIEW
 70
     0
  9
$PUCSORGTOP
 10
0.0
 20
0.0
 30
0.0
  9
$PUCSORGBOTTOM
 10
0.0
 20
0.0
 30
0.0
  9
$PUCSORGLEFT
 10
0.0
 20
0.0
 30
0.0
  9
$PUCSORGRIGHT
 10
0.0
 20
0.0
 30
0.0
  9
$PUCSORGFRONT
 10
0.0
 20
0.0
 30
0.0
  9
$PUCSORGBACK
 10
0.0
 20
0.0
 30
0.0
  9
$USERI1
 70
     0
  9
$USERI2
 70
     0
  9
$USERI3
 70
     0
  9
$USERI4
 70
     0
  9
$USERI5
 70
     0
  9
$USERR1
 40
0.0
  9
$USERR2
 40
0.0
  9
$USERR3
 40
0.0
  9
$USERR4
 40
0.0
  9
$USERR5
 40
0.0
  9
$WORLDVIEW
 70
     1
  9
$SHADEDGE
 70
     3
  9
$SHADEDIF
 70
    70
  9
$TILEMODE
 70
     1
  9
$MAXACTVP
 70
    64
  9
$PINSBASE
 10
0.0
 20
0.0
 30
0.0
  9
$PLIMCHECK
 70
     0
  9
$PEXTMIN
 10
1.0000000000E+20
 20
1.0000000000E+20
 30
1.0000000000E+20
  9
$PEXTMAX
 10
-1.0000000000E+20
 20
-1.0000000000E+20
 30
-1.0000000000E+20
  9
$PLIMMIN
 10
0.0
 20
0.0
  9
$PLIMMAX
 10
420.0
 20
297.0
  9
$UNITMODE
 70
     0
  9
$VISRETAIN
 70
     1
  9
$PLINEGEN
 70
     0
  9
$PSLTSCALE
 70
     1
  9
$TREEDEPTH
 70
  3020
  9
$CMLSTYLE
  2
Standard
  9
$CMLJUST
 70
     0
  9
$CMLSCALE
 40
20.0
  9
$PROXYGRAPHICS
 70
     1
  9
$MEASUREMENT
 70
     1
  9
$CELWEIGHT
370
    -1
  9
$ENDCAPS
280
     0
  9
$JOINSTYLE
280
     0
  9
$LWDISPLAY
290
     1
  9
$INSUNITS
 70
     4
  9
$HYPERLINKBASE
  1

  9
$STYLESHEET
  1

  9
$XEDIT
290
     1
  9
$CEPSNTYPE
380
     0
  9
$PSTYLEMODE
290
     1
  9
$FINGERPRINTGUID
  2
{e71c7c35-9371-41f0-aed7-35cb55c4ad1a}
  9
$VERSIONGUID
  2
{FAEB1C32-E019-11D5-929B-00C0DF256EC4}
  9
$EXTNAMES
290
     1
  9
$PSVPSCALE
 40
0.0
  9
$OLESTARTUP
290
     0
  0
ENDSEC
  0
SECTION
  2
CLASSES
  0
CLASS
  1
ACDBDICTIONARYWDFLT
  2
AcDbDictionaryWithDefault
  3
ObjectDBX Classes
 90
        0
280
     0
281
     0
  0
CLASS
  1
VISUALSTYLE
  2
AcDbVisualStyle
  3
ObjectDBX Classes
 90
     4095
280
     0
281
     0
  0
CLASS
  1
MATERIAL
  2
AcDbMaterial
  3
ObjectDBX Classes
 90
     1153
280
     0
281
     0
  0
CLASS
  1
SCALE
  2
AcDbScale
  3
ObjectDBX Classes
 90
     1153
280
     0
281
     0
  0
CLASS
  1
TABLESTYLE
  2
AcDbTableStyle
  3
ObjectDBX Classes
 90
     4095
280
     0
281
     0
  0
CLASS
  1
MLEADERSTYLE
  2
AcDbMLeaderStyle
  3
ACDB_MLEADERSTYLE_CLASS
 90
     4095
280
     0
281
     0
  0
CLASS
  1
SUN
  2
AcDbSun
  3
SCENEOE
 90
     1153
280
     0
281
     0
  0
CLASS
  1
ACDBPLACEHOLDER
  2
AcDbPlaceHolder
  3
ObjectDBX Classes
 90
        0
280
     0
281
     0
  0
CLASS
  1
LAYOUT
  2
AcDbLayout
  3
ObjectDBX Classes
 90
        0
280
     0
281
     0
  0
ENDSEC
  0
SECTION
  2
TABLES
  0
TABLE
  2
VPORT
  5
8
330
0
100
AcDbSymbolTable
 70
     1
  0
VPORT
  5
29
330
8
100
AcDbSymbolTableRecord
100
AcDbViewportTableRecord
  2
*Active
 70
     0
 10
0.0
 20
0.0
 11
1.0
 21
1.0
 12
139.7
 22
107.95
 13
0.0
 23
0.0
 14
10.0
 24
10.0
 15
10.0
 25
10.0
 16
0.0
 26
0.0
 36
1.0
 17
0.0
 27
0.0
 37
0.0
 40
215.9
 41
1.2941176471
 42
50.0
 43
0.0
 44
0.0
 50
0.0
 51
0.0
 71
     0
 72
  2000
 73
     1
 74
     3
 75
     0
 76
     0
 77
     0
 78
     0
281
     0
 65
     1
110
0.0
120
0.0
130
0.0
111
1.0
121
0.0
131
0.0
112
0.0
122
1.0
132
0.0
 79
     0
146
0.0
  0
ENDTAB
  0
TABLE
  2
LTYPE
  5
5
330
0
100
AcDbSymbolTable
 70
     6
  0
LTYPE
  5
14
330
5
100
AcDbSymbolTableRecord
100
AcDbLinetypeTableRecord
  2
ByBlock
 70
     0
  3

 72
    65
 73
     0
 40
0.0
  0
LTYPE
  5
15
330
5
100
AcDbSymbolTableRecord
100
AcDbLinetypeTableRecord
  2
ByLayer
 70
     0
  3

 72
    65
 73
     0
 40
0.0
  0
LTYPE
  5
16
330
5
100
AcDbSymbolTableRecord
100
AcDbLinetypeTableRecord
  2
Continuous
 70
     0
  3
Solid line
 72
    65
 73
     0
 40
0.0
  0
LTYPE
  5
6E
330
5
100
AcDbSymbolTableRecord
100
AcDbLinetypeTableRecord
  2
HIDDEN
 70
     0
  3
Hidden __ __ __ __ __ __ __ __ __ __ __ __ __ __
 72
    65
 73
     2
 40
1.905
 49
1.27
 74
     0
 49
-0.635
 74
     0
  0
LTYPE
  5
6F
330
5
100
AcDbSymbolTableRecord
100
AcDbLinetypeTableRecord
  2
PHANTOM
 70
     0
  3
Phantom ______  __  __  ______  __  __  ______
 72
    65
 73
     6
 40
12.7
 49
6.35
 74
     0
 49
-1.27
 74
     0
 49
1.27
 74
     0
 49
-1.27
 74
     0
 49
1.27
 74
     0
 49
-1.27
 74
     0
  0
LTYPE
  5
70
330
5
100
AcDbSymbolTableRecord
100
AcDbLinetypeTableRecord
  2
CENTER
 70
     0
  3
Center ____ _ ____ _ ____ _ ____ _ ____ _ ____
 72
    65
 73
     4
 40
10.16
 49
6.35
 74
     0
 49
-1.27
 74
     0
 49
1.27
 74
     0
 49
-1.27
 74
     0
  0
LTYPE
  5
71
330
5
100
AcDbSymbolTableRecord
100
AcDbLinetypeTableRecord
  2
CENTERX2
 70
     0
  3
Center (2x) ________  __  ________  __  _____
 72
    65
 73
     4
 40
20.32
 49
12.7
 74
     0
 49
-2.54
 74
     0
 49
2.54
 74
     0
 49
-2.54
 74
     0
  0
LTYPE
  5
72
330
5
100
AcDbSymbolTableRecord
100
AcDbLinetypeTableRecord
  2
DOT2
 70
     0
  3
Dot (.5x) ........................................
 72
    65
 73
     2
 40
0.635
 49
0.0
 74
     0
 49
-0.635
 74
     0
  0
ENDTAB
  0
TABLE
  2
LAYER
  5
2
330
0
100
AcDbSymbolTable
 70
    17
  0
LAYER
  5
10
330
2
100
AcDbSymbolTableRecord
100
AcDbLayerTableRecord
  2
0
 70
     0
 62
     7
  6
Continuous
370
    -3
390
F
  0
LAYER
  5
73
330
2
100
AcDbSymbolTableRecord
100
AcDbLayerTableRecord
  2
FORMAT
 70
     0
 62
     7
  6
Continuous
370
    -3
390
F
  0
LAYER
  5
74
330
2
100
AcDbSymbolTableRecord
100
AcDbLayerTableRecord
  2
YARDIMCI_GEOMETRI
 70
     0
 62
    -6
  6
Continuous
290
     0
370
    -3
390
F
  0
LAYER
  5
75
330
2
100
AcDbSymbolTableRecord
100
AcDbLayerTableRecord
  2
SAYFA_CERCEVESI
 70
     0
 62
     7
  6
Continuous
370
    25
390
F
  0
LAYER
  5
76
330
2
100
AcDbSymbolTableRecord
100
AcDbLayerTableRecord
  2
ANTET
 70
     0
 62
     7
  6
Continuous
370
    -3
390
F
  0
LAYER
  5
77
330
2
100
AcDbSymbolTableRecord
100
AcDbLayerTableRecord
  2
OLCU
 70
     0
 62
   150
  6
Continuous
370
    -3
390
F
  0
LAYER
  5
78
330
2
100
AcDbSymbolTableRecord
100
AcDbLayerTableRecord
  2
METIN
 70
     0
 62
    96
  6
Continuous
370
    -3
390
F
  0
LAYER
  5
79
330
2
100
AcDbSymbolTableRecord
100
AcDbLayerTableRecord
  2
BALON
 70
     0
 62
     5
  6
Continuous
370
    -3
390
F
  0
LAYER
  5
7A
330
2
100
AcDbSymbolTableRecord
100
AcDbLayerTableRecord
  2
VURGU
 70
     0
 62
     7
  6
Continuous
370
    -3
390
F
  0
LAYER
  5
7B
330
2
100
AcDbSymbolTableRecord
100
AcDbLayerTableRecord
  2
SILIK
 70
     0
 62
     7
  6
Continuous
370
    -3
390
F
  0
LAYER
  5
7C
330
2
100
AcDbSymbolTableRecord
100
AcDbLayerTableRecord
  2
MODEL
 70
     0
 62
     7
  6
Continuous
370
    -3
390
F
  0
LAYER
  5
7D
330
2
100
AcDbSymbolTableRecord
100
AcDbLayerTableRecord
  2
DETAYLANDıRMA
 70
     0
 62
   190
  6
Continuous
370
    -3
390
F
  0
LAYER
  5
7E
330
2
100
AcDbSymbolTableRecord
100
AcDbLayerTableRecord
  2
TOLERANS
 70
     0
 62
   230
  6
Continuous
370
    -3
390
F
  0
LAYER
  5
7F
330
2
100
AcDbSymbolTableRecord
100
AcDbLayerTableRecord
  2
MERKEZ_CIZGILERI
 70
     0
 62
    30
  6
Continuous
370
    -3
390
F
  0
LAYER
  5
80
330
2
100
AcDbSymbolTableRecord
100
AcDbLayerTableRecord
  2
KESIT-DETAY_CIZGILERI
 70
     0
 62
     7
  6
Continuous
370
    -3
390
F
  0
LAYER
  5
81
330
2
100
AcDbSymbolTableRecord
100
AcDbLayerTableRecord
  2
\U+041E\U+0421\U+0415\U+0412\U+042B\U+0415
 70
     0
 62
     7
  6
Continuous
370
    -3
390
F
  0
LAYER
  5
82
330
2
100
AcDbSymbolTableRecord
100
AcDbLayerTableRecord
  2
\U+0412\U+041E\U+0414\U+042F\U+041D\U+042B\U+0415_\U+0417\U+041D\U+0410\U+041A\U+0418
 70
     0
 62
    11
  6
Continuous
370
    -3
390
F
  0
ENDTAB
  0
TABLE
  2
STYLE
  5
3
330
0
100
AcDbSymbolTable
 70
     1
  0
STYLE
  5
11
330
3
100
AcDbSymbolTableRecord
100
AcDbTextStyleTableRecord
  2
Standard
 70
     0
 40
0.0
 41
1.0
 50
0.0
 71
     0
 42
3.5
  3
txt
  4

  0
ENDTAB
  0
TABLE
  2
VIEW
  5
6
330
0
100
AcDbSymbolTable
 70
     0
  0
ENDTAB
  0
TABLE
  2
UCS
  5
7
330
0
100
AcDbSymbolTable
 70
     0
  0
ENDTAB
  0
TABLE
  2
APPID
  5
9
330
0
100
AcDbSymbolTable
 70
     1
  0
APPID
  5
12
330
9
100
AcDbSymbolTableRecord
100
AcDbRegAppTableRecord
  2
ACAD
 70
     0
  0
ENDTAB
  0
TABLE
  2
DIMSTYLE
  5
A
330
0
100
AcDbSymbolTable
 70
     1
100
AcDbDimStyleTable
  0
DIMSTYLE
105
27
330
A
100
AcDbSymbolTableRecord
100
AcDbDimStyleTableRecord
  2
ISO-25
 70
     0
 41
2.5
 42
0.625
 43
3.75
 44
1.25
 73
     0
 74
     0
 77
     1
 78
     8
140
2.5
141
2.5
143
0.0393700787
147
0.625
171
     3
172
     1
178
     0
271
     2
272
     2
274
     3
278
    44
283
     0
284
     8
340
11
  0
ENDTAB
  0
TABLE
  2
BLOCK_RECORD
  5
1
330
0
100
AcDbSymbolTable
 70
     3
  0
BLOCK_RECORD
  5
1F
330
1
100
AcDbSymbolTableRecord
100
AcDbBlockTableRecord
  2
*Model_Space
340
22
  0
BLOCK_RECORD
  5
1B
330
1
100
AcDbSymbolTableRecord
100
AcDbBlockTableRecord
  2
*Paper_Space
340
1E
  0
BLOCK_RECORD
  5
23
330
1
100
AcDbSymbolTableRecord
100
AcDbBlockTableRecord
  2
*Paper_Space0
340
26
  0
BLOCK_RECORD
  5
88
330
1
100
AcDbSymbolTableRecord
100
AcDbBlockTableRecord
  2
SW_CENTERMARKSYMBOL_0
340
0
102
{BLKREFS
331
93
102
}
  0
BLOCK_RECORD
  5
BB
330
1
100
AcDbSymbolTableRecord
100
AcDbBlockTableRecord
  2
SW_CENTERMARKSYMBOL_1
340
0
102
{BLKREFS
331
C6
102
}
  0
ENDTAB
  0
ENDSEC
  0
SECTION
  2
BLOCKS
  0
BLOCK
  5
20
330
1F
100
AcDbEntity
  8
0
100
AcDbBlockBegin
  2
*Model_Space
 70
     0
 10
0.0
 20
0.0
 30
0.0
  3
*Model_Space
  1

  0
ENDBLK
  5
21
330
1F
100
AcDbEntity
  8
0
100
AcDbBlockEnd
  0
BLOCK
  5
1C
330
1B
100
AcDbEntity
 67
     1
  8
0
100
AcDbBlockBegin
  2
*Paper_Space
 70
     0
 10
0.0
 20
0.0
 30
0.0
  3
*Paper_Space
  1

  0
ENDBLK
  5
1D
330
1B
100
AcDbEntity
 67
     1
  8
0
100
AcDbBlockEnd
  0
BLOCK
  5
24
330
23
100
AcDbEntity
  8
0
100
AcDbBlockBegin
  2
*Paper_Space0
 70
     0
 10
0.0
 20
0.0
 30
0.0
  3
*Paper_Space0
  1

  0
ENDBLK
  5
25
330
23
100
AcDbEntity
  8
0
100
AcDbBlockEnd
  0
BLOCK
  5
89
330
88
100
AcDbEntity
  8
0
100
AcDbBlockBegin
  2
SW_CENTERMARKSYMBOL_0
 70
     0
 10
0.0
 20
0.0
 30
0.0
  3
SW_CENTERMARKSYMBOL_0
  1

  0
LINE
  5
8B
330
88
100
AcDbEntity
  8
FORMAT
 62
     0
100
AcDbLine
 10
0.0
 20
0.0
 30
0.0
 11
0.0
 21
2.5
 31
0.0
  0
LINE
  5
8C
330
88
100
AcDbEntity
  8
FORMAT
 62
     0
100
AcDbLine
 10
0.0
 20
0.0
 30
0.0
 11
-2.5
 21
0.0
 31
0.0
  0
LINE
  5
8D
330
88
100
AcDbEntity
  8
FORMAT
 62
     0
100
AcDbLine
 10
0.0
 20
0.0
 30
0.0
 11
0.0
 21
-2.5
 31
0.0
  0
LINE
  5
8E
330
88
100
AcDbEntity
  8
FORMAT
 62
     0
100
AcDbLine
 10
0.0
 20
0.0
 30
0.0
 11
2.5
 21
0.0
 31
0.0
  0
LINE
  5
8F
330
88
100
AcDbEntity
  8
FORMAT
 62
     0
100
AcDbLine
 10
0.0
 20
5.0
 30
0.0
 11
0.0
 21
180.0
 31
0.0
  0
LINE
  5
90
330
88
100
AcDbEntity
  8
FORMAT
 62
     0
100
AcDbLine
 10
-5.0
 20
0.0
 30
0.0
 11
-180.0
 21
0.0
 31
0.0
  0
LINE
  5
91
330
88
100
AcDbEntity
  8
FORMAT
 62
     0
100
AcDbLine
 10
0.0
 20
-5.0
 30
0.0
 11
0.0
 21
-180.0
 31
0.0
  0
LINE
  5
92
330
88
100
AcDbEntity
  8
FORMAT
 62
     0
100
AcDbLine
 10
5.0
 20
0.0
 30
0.0
 11
180.0
 21
0.0
 31
0.0
  0
ENDBLK
  5
8A
330
88
100
AcDbEntity
  8
0
100
AcDbBlockEnd
  0
BLOCK
  5
BC
330
BB
100
AcDbEntity
  8
0
100
AcDbBlockBegin
  2
SW_CENTERMARKSYMBOL_1
 70
     0
 10
0.0
 20
0.0
 30
0.0
  3
SW_CENTERMARKSYMBOL_1
  1

  0
LINE
  5
BE
330
BB
100
AcDbEntity
  8
FORMAT
 62
     0
100
AcDbLine
 10
0.0
 20
0.0
 30
0.0
 11
0.0
 21
2.5
 31
0.0
  0
LINE
  5
BF
330
BB
100
AcDbEntity
  8
FORMAT
 62
     0
100
AcDbLine
 10
0.0
 20
0.0
 30
0.0
 11
-2.5
 21
0.0
 31
0.0
  0
LINE
  5
C0
330
BB
100
AcDbEntity
  8
FORMAT
 62
     0
100
AcDbLine
 10
0.0
 20
0.0
 30
0.0
 11
0.0
 21
-2.5
 31
0.0
  0
LINE
  5
C1
330
BB
100
AcDbEntity
  8
FORMAT
 62
     0
100
AcDbLine
 10
0.0
 20
0.0
 30
0.0
 11
2.5
 21
0.0
 31
0.0
  0
LINE
  5
C2
330
BB
100
AcDbEntity
  8
FORMAT
 62
     0
100
AcDbLine
 10
0.0
 20
5.0
 30
0.0
 11
0.0
 21
180.0
 31
0.0
  0
LINE
  5
C3
330
BB
100
AcDbEntity
  8
FORMAT
 62
     0
100
AcDbLine
 10
-5.0
 20
0.0
 30
0.0
 11
-180.0
 21
0.0
 31
0.0
  0
LINE
  5
C4
330
BB
100
AcDbEntity
  8
FORMAT
 62
     0
100
AcDbLine
 10
0.0
 20
-5.0
 30
0.0
 11
0.0
 21
-180.0
 31
0.0
  0
LINE
  5
C5
330
BB
100
AcDbEntity
  8
FORMAT
 62
     0
100
AcDbLine
 10
5.0
 20
0.0
 30
0.0
 11
180.0
 21
0.0
 31
0.0
  0
ENDBLK
  5
BD
330
BB
100
AcDbEntity
  8
0
100
AcDbBlockEnd
  0
ENDSEC
  0
SECTION
  2
ENTITIES
  0
LINE
  5
83
330
1F
100
AcDbEntity
  8
0
  6
Continuous
 62
     7
370
    25
100
AcDbLine
 10
22.548077685
 20
-71.0517129356
 30
0.0
 11
416.548077685
 21
-71.0517129356
 31
0.0
  0
LINE
  5
84
330
1F
100
AcDbEntity
  8
0
  6
Continuous
 62
     7
370
    25
100
AcDbLine
 10
416.548077685
 20
283.9482870644
 30
0.0
 11
22.548077685
 21
283.9482870644
 31
0.0
  0
CIRCLE
  5
85
330
1F
100
AcDbEntity
  8
0
  6
Continuous
 62
     7
370
    25
100
AcDbCircle
 10
22.548077685
 20
106.4482870644
 30
0.0
 40
156.4
  0
CIRCLE
  5
86
330
1F
100
AcDbEntity
  8
0
  6
Continuous
 62
     7
370
    25
100
AcDbCircle
 10
22.548077685
 20
106.4482870644
 30
0.0
 40
177.5
  0
LINE
  5
87
330
1F
100
AcDbEntity
  8
0
  6
Continuous
 62
     7
370
    25
100
AcDbLine
 10
416.548077685
 20
283.9482870644
 30
0.0
 11
416.548077685
 21
-71.0517129356
 31
0.0
  0
INSERT
  5
93
330
1F
100
AcDbEntity
  8
FORMAT
100
AcDbBlockReference
  2
SW_CENTERMARKSYMBOL_0
 10
22.548077685
 20
106.4482870644
 30
0.0
  0
LINE
  5
94
330
1F
100
AcDbEntity
  8
0
  6
Continuous
 62
     7
370
    25
100
AcDbLine
 10
200.048077685
 20
976.4993687436
 30
0.0
 11
200.048077685
 21
1193.4993687436
 31
0.0
  0
LINE
  5
95
330
1F
100
AcDbEntity
  8
0
  6
Continuous
 62
     7
370
    25
100
AcDbLine
 10
200.048077685
 20
404.4993687436
 30
0.0
 11
200.048077685
 21
621.4993687436
 31
0.0
  0
LINE
  5
96
330
1F
100
AcDbEntity
  8
0
  6
Continuous
 62
     7
370
    25
100
AcDbLine
 10
-154.951922315
 20
1193.4993687436
 30
0.0
 11
-154.951922315
 21
404.4993687436
 31
0.0
  0
LINE
  5
97
330
1F
100
AcDbEntity
  8
0
  6
Continuous
 62
     7
370
    25
100
AcDbLine
 10
200.048077685
 20
621.4993687436
 30
0.0
 11
416.548077685
 21
621.4993687436
 31
0.0
  0
LINE
  5
98
330
1F
100
AcDbEntity
  8
0
  6
Continuous
 62
     7
370
    25
100
AcDbLine
 10
416.548077685
 20
976.4993687436
 30
0.0
 11
200.048077685
 21
976.4993687436
 31
0.0
  0
LINE
  5
99
330
1F
100
AcDbEntity
  8
0
  6
Continuous
 62
     7
370
    25
100
AcDbLine
 10
200.048077685
 20
976.4993687436
 30
0.0
 11
22.548077685
 21
798.9993687436
 31
0.0
  0
LINE
  5
9A
330
1F
100
AcDbEntity
  8
0
  6
Continuous
 62
     7
370
    25
100
AcDbLine
 10
22.548077685
 20
798.9993687436
 30
0.0
 11
200.048077685
 21
621.4993687436
 31
0.0
  0
LINE
  5
9B
330
1F
100
AcDbEntity
  8
0
  6
Continuous
 62
     7
370
    25
100
AcDbLine
 10
-154.951922315
 20
1193.4993687436
 30
0.0
 11
200.048077685
 21
1193.4993687436
 31
0.0
  0
LINE
  5
9C
330
1F
100
AcDbEntity
  8
0
  6
Continuous
 62
     7
370
    25
100
AcDbLine
 10
-154.951922315
 20
404.4993687436
 30
0.0
 11
200.048077685
 21
404.4993687436
 31
0.0
  0
LINE
  5
9D
330
1F
100
AcDbEntity
  8
0
  6
Continuous
 62
     7
370
    25
100
AcDbLine
 10
416.548077685
 20
976.4993687436
 30
0.0
 11
416.548077685
 21
621.4993687436
 31
0.0
  0
LINE
  5
9E
330
1F
100
AcDbEntity
  8
0
  6
Continuous
 62
     7
370
    25
100
AcDbLine
 10
1008.8678808084
 20
-71.0517129356
 30
0.0
 11
1403.3678808084
 21
-71.0517129356
 31
0.0
  0
LINE
  5
9F
330
1F
100
AcDbEntity
  8
0
  6
Continuous
 62
     7
370
    25
100
AcDbLine
 10
614.3678808084
 20
-71.0517129356
 30
0.0
 11
1008.8678808084
 21
-71.0517129356
 31
0.0
  0
LINE
  5
A0
330
1F
100
AcDbEntity
  8
0
  6
Continuous
 62
     7
370
    25
100
AcDbLine
 10
1008.8678808084
 20
283.9482870644
 30
0.0
 11
614.3678808084
 21
283.9482870644
 31
0.0
  0
LINE
  5
A1
330
1F
100
AcDbEntity
  8
0
  6
Continuous
 62
     7
370
    25
100
AcDbLine
 10
1403.3678808084
 20
283.9482870644
 30
0.0
 11
1008.8678808084
 21
283.9482870644
 31
0.0
  0
LINE
  5
A2
330
1F
100
AcDbEntity
  8
0
  6
Continuous
 62
     7
370
    25
100
AcDbLine
 10
1403.3678808084
 20
283.9482870644
 30
0.0
 11
1403.3678808084
 21
-71.0517129356
 31
0.0
  0
LINE
  5
A3
330
1F
100
AcDbEntity
  8
0
  6
Continuous
 62
     7
370
    25
100
AcDbLine
 10
614.3678808084
 20
283.9482870644
 30
0.0
 11
614.3678808084
 21
-71.0517129356
 31
0.0
  0
LINE
  5
A4
330
1F
100
AcDbEntity
  8
0
  6
Continuous
 62
     7
370
    25
100
AcDbLine
 10
1008.6948469578
 20
-522.833675227
 30
0.0
 11
818.4840093012
 21
-413.0272959423
 31
0.0
  0
LINE
  5
A5
330
1F
100
AcDbEntity
  8
0
  6
Continuous
 62
     7
370
    25
100
AcDbLine
 10
1376.3912596573
 20
-735.1002960564
 30
0.0
 11
1363.7236992167
 21
-727.7874690719
 31
0.0
  0
LINE
  5
A6
330
1F
100
AcDbEntity
  8
0
  6
Continuous
 62
     7
370
    25
100
AcDbLine
 10
640.9984342583
 20
-720.4746420874
 30
0.0
 11
1198.9056846144
 21
-1042.5476422015
 31
0.0
  0
LINE
  5
A7
330
1F
100
AcDbEntity
  8
0
  6
Continuous
 62
     7
370
    25
100
AcDbLine
 10
1186.1804220007
 20
-830.2810213721
 30
0.0
 11
1376.0377062668
 21
-720.6787441154
 31
0.0
  0
LINE
  5
A8
330
1F
100
AcDbEntity
  8
0
  6
Continuous
 62
     7
370
    25
100
AcDbLine
 10
1198.5521312239
 20
-413.2313979703
 30
0.0
 11
1008.6948469578
 21
-522.833675227
 31
0.0
  0
LINE
  5
A9
330
1F
100
AcDbEntity
  8
0
  6
Continuous
 62
     7
370
    25
100
AcDbLine
 10
1008.6948469578
 20
-522.833675227
 30
0.0
 11
1008.6948469578
 21
-872.7234631816
 31
0.0
  0
ELLIPSE
  5
AA
330
1F
100
AcDbEntity
  8
0
  6
Continuous
 62
     7
370
    25
100
AcDbEllipse
 10
1008.6948469578
 20
-727.7874690719
 30
0.0
 11
251.0229073212246
 21
3.410605131648481E-13
 31
0.0
210
0.0
220
0.0
230
1.0
 40
0.5773815452
 41
4.712388980384697
 42
5.49770587972005
  0
LWPOLYLINE
  5
AB
330
1F
100
AcDbEntity
  8
0
  6
Continuous
 62
     7
370
    25
100
AcDbPolyline
 90
      142
 70
   128
 43
0.0
 10
855.2526754403
 20
-494.2947490906
 10
855.1280797536
 20
-487.9102344488
 10
854.7545400668
 20
-481.6822507876
 10
854.1327980083
 20
-475.6231631922
 10
853.2640879895
 20
-469.74500142
 10
852.1501347535
 20
-464.0594360172
 10
850.7931499516
 20
-458.5777551475
 10
849.1958277514
 20
-453.310842181
 10
847.3613394883
 20
-448.2691540858
 10
845.2933273689
 20
-443.462700667
 10
842.9958972399
 20
-438.9010246929
 10
840.4736104361
 20
-434.5931829488
 10
837.7314747245
 20
-430.5477282559
 10
834.7749343618
 20
-426.7726924899
 10
831.6098592851
 20
-423.275570635
 10
828.242533458
 20
-420.0633059029
 10
824.6796423943
 20
-417.1422759477
 10
820.9282598844
 20
-414.5182802043
 10
816.995833951
 20
-412.1965283731
 10
812.8901720618
 20
-410.1816300776
 10
808.6194256285
 20
-408.4775857119
 10
804.1920738227
 20
-407.0877784981
 10
799.6169067417
 20
-406.0149677701
 10
794.9030079562
 20
-405.261283494
 10
790.059736476
 20
-404.8282220404
 10
785.0967081681
 20
-404.7166432126
 10
780.023776666
 20
-404.9267685401
 10
774.8510138055
 20
-405.4581808384
 10
769.5886896285
 20
-406.3098250378
 10
764.2472519925
 20
-407.4800102773
 10
758.8373058276
 20
-408.9664132626
 10
753.3695920811
 20
-410.7660828781
 10
747.8549663925
 20
-412.8754460464
 10
742.3043775406
 20
-415.2903148221
 10
736.7288457059
 20
-418.0058947069
 10
731.1394405907
 20
-421.0167941682
 10
725.5472594414
 20
-424.3170353439
 10
719.9634050162
 20
-427.9000659106
 10
714.3989635411
 20
-431.7587720927
 10
708.8649826995
 20
-435.8854927863
 10
703.3724496983
 20
-440.2720347696
 10
697.9322694532
 20
-444.9096889693
 10
692.5552429386
 20
-449.7892477524
 10
687.2520457429
 20
-454.9010232065
 10
682.0332068732
 20
-460.2348663747
 10
676.909087851
 20
-465.7801874052
 10
671.8898621404
 20
-471.5259765762
 10
666.9854949494
 20
-477.4608261552
 10
662.2057234451
 20
-483.5729530479
 10
657.5600374213
 20
-489.8502221918
 10
653.0576604576
 20
-496.2801706504
 10
648.7075316068
 20
-502.850032356
 10
644.518287647
 20
-509.5467634564
 10
640.4982459343
 20
-516.3570682118
 10
636.6553878894
 20
-523.2674253927
 10
632.9973431512
 20
-530.2641151243
 10
629.5313744291
 20
-537.333246127
 10
626.264363083
 20
-544.4607832954
 10
623.2027954616
 20
-551.6325755643
 10
620.3527500239
 20
-558.8343840039
 10
617.7198852715
 20
-566.0519100904
 10
615.3094285135
 20
-573.2708240936
 10
613.1261654887
 20
-580.476793528
 10
611.1744308637
 20
-587.6555116084
 10
609.4580996271
 20
-594.7927256545
 10
607.9805793956
 20
-601.8742653884
 10
606.7448036488
 20
-608.8860710686
 10
605.7532259052
 20
-615.8142214039
 10
605.0078148504
 20
-622.644961193
 10
604.5100504293
 20
-629.3647286345
 10
604.2609209069
 20
-635.960182252
 10
604.2609209069
 20
-642.418227383
 10
604.5100504293
 20
-648.7260421766
 10
605.0078148504
 20
-654.8711030504
 10
605.7532259052
 20
-660.8412095548
 10
606.7448036488
 20
-666.6245085961
 10
607.9805793956
 20
-672.2095179693
 10
609.4580996271
 20
-677.5851491552
 10
611.1744308637
 20
-682.7407293358
 10
613.1261654887
 20
-687.6660225837
 10
615.3094285135
 20
-692.3512501852
 10
617.7198852715
 20
-696.7871100546
 10
620.3527500239
 20
-700.9647952027
 10
623.2027954616
 20
-704.8760112223
 10
626.264363083
 20
-708.512992756
 10
629.5313744291
 20
-711.8685189137
 10
632.9973431512
 20
-714.9359276089
 10
636.6553878894
 20
-717.7091287853
 10
640.4982459343
 20
-720.182616509
 10
644.518287647
 20
-722.3514798988
 10
648.7075316068
 20
-724.2114128773
 10
653.0576604576
 20
-725.7587227198
 10
657.5600374213
 20
-726.9903373857
 10
662.2057234451
 20
-727.9038116182
 10
666.9854949494
 20
-728.4973317988
 10
671.8898621404
 20
-728.769719548
 10
676.909087851
 20
-728.7204340651
 10
682.0332068732
 20
-728.3495732021
 10
687.2520457429
 20
-727.6578732686
 10
692.5552429386
 20
-726.6467075711
 10
697.9322694532
 20
-725.3180836853
 10
703.3724496983
 20
-723.6746394709
 10
708.8649826996
 20
-721.7196378345
 10
714.3989635411
 20
-719.4569602507
 10
719.9634050162
 20
-716.8910990564
 10
725.5472594414
 20
-714.0271485315
 10
731.1394405907
 20
-710.8707947848
 10
736.7288457059
 20
-707.4283044643
 10
742.3043775406
 20
-703.7065123161
 10
747.8549663925
 20
-699.7128076138
 10
753.3695920811
 20
-695.4551194885
 10
758.8373058276
 20
-690.9419011858
 10
764.2472519925
 20
-686.182113283
 10
769.5886896285
 20
-681.1852058984
 10
774.8510138055
 20
-675.9610999289
 10
780.023776666
 20
-670.5201673535
 10
785.0967081681
 20
-664.8732106401
 10
790.059736476
 20
-659.0314412986
 10
794.9030079562
 20
-653.0064576212
 10
799.6169067417
 20
-646.8102216554
 10
804.1920738227
 20
-640.4550354542
 10
808.6194256285
 20
-633.9535166513
 10
812.8901720618
 20
-627.3185734108
 10
816.995833951
 20
-620.5633787981
 10
820.9282598844
 20
-613.7013446268
 10
824.6796423943
 20
-606.7460948308
 10
828.242533458
 20
-599.7114384145
 10
831.6098592851
 20
-592.6113420373
 10
834.7749343618
 20
-585.4599022831
 10
837.7314747245
 20
-578.2713176737
 10
840.4736104361
 20
-571.0598604785
 10
842.9958972399
 20
-563.839848378
 10
845.2933273689
 20
-556.6256160382
 10
847.3613394883
 20
-549.4314866494
 10
849.1958277514
 20
-542.2717434897
 10
850.7931499516
 20
-535.1606015664
 10
852.1501347535
 20
-528.1121793935
 10
853.2640879895
 20
-521.1404709608
 10
854.1327980083
 20
-514.2593179501
 10
854.7545400668
 20
-507.4823822537
 10
855.1280797536
 20
-500.8231188502
 10
855.2526754403
 20
-494.2947490906
  0
LWPOLYLINE
  5
AC
330
1F
100
AcDbEntity
  8
0
  6
Continuous
 62
     7
370
    25
100
AcDbPolyline
 90
       19
 70
   128
 43
0.0
 10
1413.1599257965
 20
-816.3677492047
 10
1413.0353301098
 20
-809.9832345629
 10
1412.661790423
 20
-803.7552509017
 10
1412.0400483645
 20
-797.6961633062
 10
1411.1713383456
 20
-791.8180015341
 10
1410.0573851097
 20
-786.1324361312
 10
1408.7004003078
 20
-780.6507552616
 10
1407.1030781076
 20
-775.3838422951
 10
1405.2685898445
 20
-770.3421541999
 10
1403.2005777251
 20
-765.5357007811
 10
1400.9031475961
 20
-760.9740248069
 10
1398.3808607923
 20
-756.6661830629
 10
1395.6387250807
 20
-752.62072837
 10
1392.682184718
 20
-748.845692604
 10
1389.5171096412
 20
-745.3485707491
 10
1386.1497838142
 20
-742.1363060169
 10
1382.5868927505
 20
-739.2152760618
 10
1378.8355102406
 20
-736.5912803183
 10
1376.3912596573
 20
-735.1002960564
  0
LWPOLYLINE
  5
AD
330
1F
100
AcDbEntity
  8
0
  6
Continuous
 62
     7
370
    25
100
AcDbPolyline
 90
       54
 70
   128
 43
0.0
 10
1198.9056846144
 20
-1042.5476422015
 10
1202.4255380032
 20
-1044.4244800128
 10
1206.614781963
 20
-1046.2844129914
 10
1210.9649108138
 20
-1047.8317228338
 10
1215.4672877774
 20
-1049.0633374998
 10
1220.1129738012
 20
-1049.9768117323
 10
1224.8927453056
 20
-1050.5703319128
 10
1229.7971124966
 20
-1050.842719662
 10
1234.8163382072
 20
-1050.7934341792
 10
1239.9404572294
 20
-1050.4225733161
 10
1245.1592960991
 20
-1049.7308733827
 10
1250.4624932948
 20
-1048.7197076851
 10
1255.8395198094
 20
-1047.3910837993
 10
1261.2797000545
 20
-1045.747639585
 10
1266.7722330557
 20
-1043.7926379485
 10
1272.3062138973
 20
-1041.5299603647
 10
1277.8706553724
 20
-1038.9640991704
 10
1283.4545097976
 20
-1036.1001486456
 10
1289.0466909469
 20
-1032.9437948988
 10
1294.6360960621
 20
-1029.5013045784
 10
1300.2116278968
 20
-1025.7795124301
 10
1305.7622167487
 20
-1021.7858077278
 10
1311.2768424373
 20
-1017.5281196025
 10
1316.7445561838
 20
-1013.0149012999
 10
1322.1545023487
 20
-1008.2551133971
 10
1327.4959399847
 20
-1003.2582060124
 10
1332.7582641617
 20
-998.034100043
 10
1337.9310270221
 20
-992.5931674675
 10
1343.0039585243
 20
-986.9462107541
 10
1347.9669868321
 20
-981.1044414126
 10
1352.8102583124
 20
-975.0794577353
 10
1357.5241570979
 20
-968.8832217695
 10
1362.0993241789
 20
-962.5280355682
 10
1366.5266759847
 20
-956.0265167654
 10
1370.797422418
 20
-949.3915735248
 10
1374.9030843072
 20
-942.6363789121
 10
1378.8355102406
 20
-935.7743447409
 10
1382.5868927505
 20
-928.8190949448
 10
1386.1497838142
 20
-921.7844385286
 10
1389.5171096412
 20
-914.6843421513
 10
1392.682184718
 20
-907.5329023972
 10
1395.6387250807
 20
-900.3443177878
 10
1398.3808607923
 20
-893.1328605925
 10
1400.9031475961
 20
-885.9128484921
 10
1403.2005777251
 20
-878.6986161522
 10
1405.2685898445
 20
-871.5044867635
 10
1407.1030781076
 20
-864.3447436038
 10
1408.7004003078
 20
-857.2336016804
 10
1410.0573851097
 20
-850.1851795075
 10
1411.1713383456
 20
-843.2134710749
 10
1412.0400483645
 20
-836.3323180642
 10
1412.661790423
 20
-829.5553823678
 10
1413.0353301098
 20
-822.8961189643
 10
1413.1599257965
 20
-816.3677492047
  0
LWPOLYLINE
  5
AE
330
1F
100
AcDbEntity
  8
0
  6
Continuous
 62
     7
370
    25
100
AcDbPolyline
 90
      133
 70
   128
 43
0.0
 10
840.3327223573
 20
-502.9078546703
 10
840.2074596979
 20
-496.9036243502
 10
839.8319554799
 20
-491.057620731
 10
839.2070603412
 20
-485.3830868912
 10
838.3341898702
 20
-479.8928774751
 10
837.2153213993
 20
-474.5994295728
 10
835.8529895254
 20
-469.5147345465
 10
834.2502803684
 20
-464.6503108657
 10
832.4108245801
 20
-460.0171780146
 10
830.3387891193
 20
-455.6258315294
 10
828.038867813
 20
-451.4862192222
 10
825.5162707225
 20
-447.6077186463
 10
822.7767123417
 20
-443.9991158531
 10
819.8263986514
 20
-440.6685854884
 10
816.672013061
 20
-437.6236722748
 10
813.3207012684
 20
-434.87127392
 10
809.7800550728
 20
-432.4176254916
 10
806.0580951766
 20
-430.2682852925
 10
802.1632530161
 20
-428.4281222695
 10
798.1043516614
 20
-426.9013049836
 10
793.8905858296
 20
-425.6912921672
 10
789.5315010556
 20
-424.8008248885
 10
785.0369720685
 20
-424.2319203422
 10
780.417180422
 20
-423.9858672801
 10
775.68259143
 20
-424.0632230915
 10
770.8439304595
 20
-424.4638125407
 10
765.9121586338
 20
-425.1867281637
 10
760.8984480024
 20
-426.2303323241
 10
755.8141562323
 20
-427.5922609228
 10
750.6708008797
 20
-429.2694287535
 10
745.4800332988
 20
-431.2580364916
 10
740.2536122477
 20
-433.553579301
 10
735.003377251
 20
-436.150857039
 10
729.7412217797
 20
-439.0439860359
 10
724.4790663084
 20
-442.2264124243
 10
719.2288313117
 20
-445.6909269846
 10
714.0024102606
 20
-449.4296814772
 10
708.8116426797
 20
-453.4342064206
 10
703.6682873271
 20
-457.6954302777
 10
698.5839955571
 20
-462.2037000061
 10
693.5702849256
 20
-466.9488029247
 10
688.6385130999
 20
-471.9199898493
 10
683.7998521294
 20
-477.1059994426
 10
679.0652631374
 20
-482.4950837248
 10
674.4454714909
 20
-488.0750346867
 10
669.9509425038
 20
-493.8332119448
 10
665.5918577298
 20
-499.7565713754
 10
661.3780918981
 20
-505.8316946644
 10
657.3191905434
 20
-512.0448197035
 10
653.4243483828
 20
-518.3818717661
 10
649.7023884866
 20
-524.8284953912
 10
646.161742291
 20
-531.3700869027
 10
642.8104304985
 20
-537.9918274919
 10
639.6560449081
 20
-544.6787167865
 10
636.7057312177
 20
-551.4156068316
 10
633.9661728369
 20
-558.1872364045
 10
631.4435757464
 20
-564.9782655861
 10
629.1436544401
 20
-571.7733105111
 10
627.0716189794
 20
-578.5569782173
 10
625.232163191
 20
-585.3139015154
 10
623.629454034
 20
-592.028773801
 10
622.2671221602
 20
-598.6863837285
 10
621.1482536892
 20
-605.2716496701
 10
620.2753832182
 20
-611.7696538805
 10
619.6504880795
 20
-618.1656762902
 10
619.2749838615
 20
-624.4452278512
 10
619.1497212021
 20
-630.5940833594
 10
619.2749838615
 20
-636.5983136796
 10
619.6504880795
 20
-642.4443172988
 10
620.2753832182
 20
-648.1188511386
 10
621.1482536892
 20
-653.6090605547
 10
622.2671221602
 20
-658.9025084569
 10
623.629454034
 20
-663.9872034833
 10
625.232163191
 20
-668.8516271641
 10
627.0716189794
 20
-673.4847600151
 10
629.1436544401
 20
-677.8761065004
 10
631.4435757464
 20
-682.0157188076
 10
633.9661728369
 20
-685.8942193834
 10
636.7057312177
 20
-689.5028221767
 10
639.6560449081
 20
-692.8333525414
 10
642.8104304985
 20
-695.878265755
 10
646.161742291
 20
-698.6306641097
 10
649.7023884866
 20
-701.0843125381
 10
653.4243483828
 20
-703.2336527372
 10
657.3191905434
 20
-705.0738157603
 10
661.3780918981
 20
-706.6006330461
 10
665.5918577298
 20
-707.8106458625
 10
669.9509425038
 20
-708.7011131413
 10
674.4454714909
 20
-709.2700176876
 10
679.0652631374
 20
-709.5160707497
 10
683.7998521294
 20
-709.4387149382
 10
688.6385130999
 20
-709.038125489
 10
693.5702849256
 20
-708.3152098661
 10
698.5839955571
 20
-707.2716057057
 10
703.6682873272
 20
-705.909677107
 10
708.8116426797
 20
-704.2325092763
 10
714.0024102606
 20
-702.2439015381
 10
719.2288313117
 20
-699.9483587287
 10
724.4790663084
 20
-697.3510809908
 10
729.7412217797
 20
-694.4579519938
 10
735.003377251
 20
-691.2755256055
 10
740.2536122477
 20
-687.8110110451
 10
745.4800332988
 20
-684.0722565525
 10
750.6708008797
 20
-680.0677316092
 10
755.8141562323
 20
-675.806507752
 10
760.8984480024
 20
-671.2982380237
 10
765.9121586338
 20
-666.553135105
 10
770.8439304595
 20
-661.5819481805
 10
775.68259143
 20
-656.3959385872
 10
780.417180422
 20
-651.006854305
 10
785.0369720685
 20
-645.426903343
 10
789.5315010556
 20
-639.668726085
 10
793.8905858296
 20
-633.7453666543
 10
798.1043516614
 20
-627.6702433653
 10
802.1632530161
 20
-621.4571183263
 10
806.0580951766
 20
-615.1200662636
 10
809.7800550728
 20
-608.6734426386
 10
813.3207012684
 20
-602.1318511271
 10
816.672013061
 20
-595.5101105379
 10
819.8263986514
 20
-588.8232212432
 10
822.7767123417
 20
-582.0863311981
 10
825.5162707225
 20
-575.3147016253
 10
828.038867813
 20
-568.5236724437
 10
830.3387891193
 20
-561.7286275186
 10
832.4108245801
 20
-554.9449598124
 10
834.2502803684
 20
-548.1880365143
 10
835.8529895254
 20
-541.4731642288
 10
837.2153213993
 20
-534.8155543013
 10
838.3341898702
 20
-528.2302883596
 10
839.2070603412
 20
-521.7322841492
 10
839.8319554799
 20
-515.3362617396
 10
840.2074596979
 20
-509.0567101786
 10
840.3327223573
 20
-502.9078546703
  0
LWPOLYLINE
  5
AF
330
1F
100
AcDbEntity
  8
0
  6
Continuous
 62
     7
370
    25
100
AcDbPolyline
 90
      142
 70
   128
 43
0.0
 10
1412.8063724059
 20
-639.4112909671
 10
1412.6817767192
 20
-632.8829212075
 10
1412.3082370324
 20
-626.223657804
 10
1411.6864949739
 20
-619.4467221076
 10
1410.817784955
 20
-612.5655690969
 10
1409.7038317191
 20
-605.5938606642
 10
1408.3468469172
 20
-598.5454384913
 10
1406.749524717
 20
-591.434296568
 10
1404.9150364539
 20
-584.2745534083
 10
1402.8470243345
 20
-577.0804240195
 10
1400.5495942055
 20
-569.8661916797
 10
1398.0273074017
 20
-562.6461795792
 10
1395.2851716901
 20
-555.434722384
 10
1392.3286313274
 20
-548.2461377746
 10
1389.1635562507
 20
-541.0946980204
 10
1385.7962304236
 20
-533.9946016432
 10
1382.2333393599
 20
-526.9599452269
 10
1378.48195685
 20
-520.0046954309
 10
1374.5495309166
 20
-513.1426612596
 10
1370.4438690274
 20
-506.3874666469
 10
1366.1731225941
 20
-499.7525234064
 10
1361.7457707883
 20
-493.2510046036
 10
1357.1706037073
 20
-486.8958184023
 10
1352.4567049218
 20
-480.6995824365
 10
1347.6134334416
 20
-474.6745987591
 10
1342.6504051337
 20
-468.8328294176
 10
1337.5774736316
 20
-463.1858727042
 10
1332.4047107711
 20
-457.7449401288
 10
1327.1423865941
 20
-452.5208341593
 10
1321.8009489581
 20
-447.5239267747
 10
1316.3910027932
 20
-442.7641388719
 10
1310.9232890467
 20
-438.2509205692
 10
1305.4086633581
 20
-433.9932324439
 10
1299.8580745062
 20
-429.9995277416
 10
1294.2825426715
 20
-426.2777355934
 10
1288.6931375563
 20
-422.8352452729
 10
1283.100956407
 20
-419.6788915262
 10
1277.5171019818
 20
-416.8149410013
 10
1271.9526605067
 20
-414.249079807
 10
1266.4186796651
 20
-411.9864022232
 10
1260.9261466639
 20
-410.0314005868
 10
1255.4859664188
 20
-408.3879563724
 10
1250.1089399042
 20
-407.0593324866
 10
1244.8057427085
 20
-406.0481667891
 10
1239.5869038388
 20
-405.3564668557
 10
1234.4627848166
 20
-404.9856059926
 10
1229.443559106
 20
-404.9363205097
 10
1224.539191915
 20
-405.2087082589
 10
1219.7594204106
 20
-405.8022284395
 10
1215.1137343869
 20
-406.715702672
 10
1210.6113574232
 20
-407.9473173379
 10
1206.2612285724
 20
-409.4946271804
 10
1202.0719846126
 20
-411.3545601589
 10
1198.0519428999
 20
-413.5234235487
 10
1194.209084855
 20
-415.9969112724
 10
1190.5510401168
 20
-418.7701124488
 10
1187.0850713947
 20
-421.837521144
 10
1183.8180600486
 20
-425.1930473017
 10
1180.7564924271
 20
-428.8300288354
 10
1177.9064469895
 20
-432.741244855
 10
1175.2735822371
 20
-436.9189300031
 10
1172.863125479
 20
-441.3547898725
 10
1170.6798624543
 20
-446.040017474
 10
1168.7281278293
 20
-450.965310722
 10
1167.0117965927
 20
-456.1208909025
 10
1165.5342763612
 20
-461.4965220884
 10
1164.2985006144
 20
-467.0815314616
 10
1163.3069228708
 20
-472.8648305029
 10
1162.561511816
 20
-478.8349370073
 10
1162.0637473949
 20
-484.9799978811
 10
1161.8146178725
 20
-491.2878126747
 10
1161.8146178725
 20
-497.7458578057
 10
1162.0637473949
 20
-504.3413114232
 10
1162.561511816
 20
-511.0610788647
 10
1163.3069228708
 20
-517.8918186538
 10
1164.2985006144
 20
-524.8199689891
 10
1165.5342763612
 20
-531.8317746693
 10
1167.0117965927
 20
-538.9133144032
 10
1168.7281278293
 20
-546.0505284493
 10
1170.6798624543
 20
-553.2292465297
 10
1172.863125479
 20
-560.4352159642
 10
1175.2735822371
 20
-567.6541299673
 10
1177.9064469895
 20
-574.8716560538
 10
1180.7564924272
 20
-582.0734644934
 10
1183.8180600486
 20
-589.2452567623
 10
1187.0850713947
 20
-596.3727939307
 10
1190.5510401168
 20
-603.4419249334
 10
1194.209084855
 20
-610.4386146651
 10
1198.0519428999
 20
-617.3489718459
 10
1202.0719846126
 20
-624.1592766013
 10
1206.2612285724
 20
-630.8560077017
 10
1210.6113574232
 20
-637.4258694073
 10
1215.1137343869
 20
-643.8558178659
 10
1219.7594204106
 20
-650.1330870099
 10
1224.539191915
 20
-656.2452139025
 10
1229.443559106
 20
-662.1800634815
 10
1234.4627848166
 20
-667.9258526525
 10
1239.5869038388
 20
-673.471173683
 10
1244.8057427085
 20
-678.8050168512
 10
1250.1089399042
 20
-683.9167923054
 10
1255.4859664188
 20
-688.7963510884
 10
1260.9261466639
 20
-693.4340052881
 10
1266.4186796651
 20
-697.8205472714
 10
1271.9526605067
 20
-701.947267965
 10
1277.5171019818
 20
-705.8059741471
 10
1283.100956407
 20
-709.3890047138
 10
1288.6931375563
 20
-712.6892458895
 10
1294.2825426715
 20
-715.7001453508
 10
1299.8580745062
 20
-718.4157252356
 10
1305.4086633581
 20
-720.8305940113
 10
1310.9232890467
 20
-722.9399571796
 10
1316.3910027932
 20
-724.7396267951
 10
1321.8009489581
 20
-726.2260297804
 10
1327.1423865941
 20
-727.39621502
 10
1332.4047107711
 20
-728.2478592193
 10
1337.5774736316
 20
-728.7792715176
 10
1342.6504051337
 20
-728.9893968451
 10
1347.6134334416
 20
-728.8778180173
 10
1352.4567049218
 20
-728.4447565637
 10
1357.1706037073
 20
-727.6910722876
 10
1361.7457707883
 20
-726.6182615596
 10
1366.1731225941
 20
-725.2284543459
 10
1370.4438690274
 20
-723.5244099801
 10
1374.5495309166
 20
-721.5095116846
 10
1378.48195685
 20
-719.1877598534
 10
1382.2333393599
 20
-716.56376411
 10
1385.7962304236
 20
-713.6427341549
 10
1389.1635562507
 20
-710.4304694227
 10
1392.3286313274
 20
-706.9333475678
 10
1395.2851716901
 20
-703.1583118018
 10
1398.0273074017
 20
-699.1128571089
 10
1400.5495942055
 20
-694.8050153648
 10
1402.8470243345
 20
-690.2433393907
 10
1404.9150364539
 20
-685.4368859719
 10
1406.749524717
 20
-680.3951978767
 10
1408.3468469172
 20
-675.1282849102
 10
1409.7038317191
 20
-669.6466040405
 10
1410.817784955
 20
-663.9610386377
 10
1411.6864949739
 20
-658.0828768655
 10
1412.3082370324
 20
-652.0237892701
 10
1412.6817767192
 20
-645.7958056089
 10
1412.8063724059
 20
-639.4112909671
  0
LWPOLYLINE
  5
B0
330
1F
100
AcDbEntity
  8
0
  6
Continuous
 62
     7
370
    25
100
AcDbPolyline
 90
      133
 70
   128
 43
0.0
 10
1397.8864193229
 20
-630.7981853874
 10
1397.7611566635
 20
-624.6493298791
 10
1397.3856524455
 20
-618.3697783181
 10
1396.7607573068
 20
-611.9737559085
 10
1395.8878868358
 20
-605.4757516981
 10
1394.7690183649
 20
-598.8904857564
 10
1393.406686491
 20
-592.2328758289
 10
1391.803977334
 20
-585.5180035434
 10
1389.9645215457
 20
-578.7610802453
 10
1387.8924860849
 20
-571.9774125391
 10
1385.5925647786
 20
-565.182367614
 10
1383.0699676881
 20
-558.3913384324
 10
1380.3304093073
 20
-551.6197088596
 10
1377.380095617
 20
-544.8828188145
 10
1374.2257100266
 20
-538.1959295198
 10
1370.874398234
 20
-531.5741889306
 10
1367.3337520384
 20
-525.0325974191
 10
1363.6117921422
 20
-518.5859737941
 10
1359.7169499816
 20
-512.2489217315
 10
1355.658048627
 20
-506.0357966924
 10
1351.4442827952
 20
-499.9606734034
 10
1347.0851980212
 20
-494.0373139727
 10
1342.5906690341
 20
-488.2791367147
 10
1337.9708773876
 20
-482.6991857527
 10
1333.2362883956
 20
-477.3101014705
 10
1328.3976274251
 20
-472.1240918773
 10
1323.4658555994
 20
-467.1529049527
 10
1318.452144968
 20
-462.407802034
 10
1313.3678531979
 20
-457.8995323057
 10
1308.2244978453
 20
-453.6383084485
 10
1303.0337302644
 20
-449.6337835052
 10
1297.8073092133
 20
-445.8950290126
 10
1292.5570742166
 20
-442.4305144522
 10
1287.2949187453
 20
-439.2480880639
 10
1282.032763274
 20
-436.3549590669
 10
1276.7825282773
 20
-433.757681329
 10
1271.5561072262
 20
-431.4621385196
 10
1266.3653396453
 20
-429.4735307814
 10
1261.2219842927
 20
-427.7963629507
 10
1256.1376925227
 20
-426.434434352
 10
1251.1239818912
 20
-425.3908301917
 10
1246.1922100655
 20
-424.6679145687
 10
1241.353549095
 20
-424.2673251195
 10
1236.618960103
 20
-424.189969308
 10
1231.9991684565
 20
-424.4360223701
 10
1227.5046394694
 20
-425.0049269165
 10
1223.1455546954
 20
-425.8953941952
 10
1218.9317888637
 20
-427.1054070116
 10
1214.872887509
 20
-428.6322242974
 10
1210.9780453484
 20
-430.4723873205
 10
1207.2560854522
 20
-432.6217275196
 10
1203.7154392566
 20
-435.075375948
 10
1200.364127464
 20
-437.8277743027
 10
1197.2097418736
 20
-440.8726875164
 10
1194.2594281833
 20
-444.203217881
 10
1191.5198698025
 20
-447.8118206743
 10
1188.997272712
 20
-451.6903212501
 10
1186.6973514057
 20
-455.8299335573
 10
1184.625315945
 20
-460.2212800426
 10
1182.7858601566
 20
-464.8544128936
 10
1181.1831509996
 20
-469.7188365744
 10
1179.8208191258
 20
-474.8035316008
 10
1178.7019506548
 20
-480.096979503
 10
1177.8290801838
 20
-485.5871889191
 10
1177.2041850451
 20
-491.2617227589
 10
1176.8286808271
 20
-497.1077263781
 10
1176.7034181677
 20
-503.1119566983
 10
1176.8286808271
 20
-509.2608122066
 10
1177.2041850451
 20
-515.5403637675
 10
1177.8290801838
 20
-521.9363861772
 10
1178.7019506548
 20
-528.4343903876
 10
1179.8208191258
 20
-535.0196563292
 10
1181.1831509996
 20
-541.6772662567
 10
1182.7858601566
 20
-548.3921385423
 10
1184.625315945
 20
-555.1490618404
 10
1186.6973514057
 20
-561.9327295466
 10
1188.997272712
 20
-568.7277744716
 10
1191.5198698025
 20
-575.5188036532
 10
1194.2594281833
 20
-582.2904332261
 10
1197.2097418736
 20
-589.0273232712
 10
1200.3641274641
 20
-595.7142125658
 10
1203.7154392566
 20
-602.335953155
 10
1207.2560854522
 20
-608.8775446665
 10
1210.9780453484
 20
-615.3241682916
 10
1214.872887509
 20
-621.6612203542
 10
1218.9317888637
 20
-627.8743453933
 10
1223.1455546954
 20
-633.9494686823
 10
1227.5046394694
 20
-639.8728281129
 10
1231.9991684565
 20
-645.631005371
 10
1236.618960103
 20
-651.2109563329
 10
1241.353549095
 20
-656.6000406151
 10
1246.1922100655
 20
-661.7860502084
 10
1251.1239818912
 20
-666.757237133
 10
1256.1376925227
 20
-671.5023400516
 10
1261.2219842927
 20
-676.01060978
 10
1266.3653396453
 20
-680.2718336371
 10
1271.5561072262
 20
-684.2763585805
 10
1276.7825282773
 20
-688.0151130731
 10
1282.032763274
 20
-691.4796276334
 10
1287.2949187453
 20
-694.6620540218
 10
1292.5570742166
 20
-697.5551830188
 10
1297.8073092133
 20
-700.1524607567
 10
1303.0337302644
 20
-702.4480035661
 10
1308.2244978453
 20
-704.4366113042
 10
1313.3678531979
 20
-706.1137791349
 10
1318.452144968
 20
-707.4757077336
 10
1323.4658555994
 20
-708.519311894
 10
1328.3976274251
 20
-709.242227517
 10
1333.2362883956
 20
-709.6428169662
 10
1337.9708773876
 20
-709.7201727776
 10
1342.5906690341
 20
-709.4741197155
 10
1347.0851980212
 20
-708.9052151692
 10
1351.4442827952
 20
-708.0147478905
 10
1355.658048627
 20
-706.8047350741
 10
1359.7169499816
 20
-705.2779177882
 10
1363.6117921422
 20
-703.4377547652
 10
1367.3337520384
 20
-701.2884145661
 10
1370.874398234
 20
-698.8347661377
 10
1374.2257100266
 20
-696.0823677829
 10
1377.380095617
 20
-693.0374545693
 10
1380.3304093073
 20
-689.7069242046
 10
1383.0699676881
 20
-686.0983214114
 10
1385.5925647786
 20
-682.2198208355
 10
1387.8924860849
 20
-678.0802085283
 10
1389.9645215457
 20
-673.6888620431
 10
1391.803977334
 20
-669.055729192
 10
1393.406686491
 20
-664.1913055112
 10
1394.7690183649
 20
-659.1066104849
 10
1395.8878868358
 20
-653.8131625826
 10
1396.7607573068
 20
-648.3229531665
 10
1397.3856524455
 20
-642.6484193267
 10
1397.7611566635
 20
-636.8024157075
 10
1397.8864193229
 20
-630.7981853874
  0
LINE
  5
B1
330
1F
100
AcDbEntity
  8
0
  6
Continuous
 62
     7
370
    25
100
AcDbLine
 10
-698.5755228841
 20
283.9482870644
 30
0.0
 11
-1093.0755228841
 21
283.9482870644
 31
0.0
  0
LINE
  5
B2
330
1F
100
AcDbEntity
  8
0
  6
Continuous
 62
     7
370
    25
100
AcDbLine
 10
-304.0755228841
 20
283.9482870644
 30
0.0
 11
-698.5755228841
 21
283.9482870644
 31
0.0
  0
LINE
  5
B3
330
1F
100
AcDbEntity
  8
0
  6
Continuous
 62
     7
370
    25
100
AcDbLine
 10
-698.5755228841
 20
-71.0517129356
 30
0.0
 11
-304.0755228841
 21
-71.0517129356
 31
0.0
  0
LINE
  5
B4
330
1F
100
AcDbEntity
  8
0
  6
Continuous
 62
     7
370
    25
100
AcDbLine
 10
-1093.0755228841
 20
-71.0517129356
 30
0.0
 11
-698.5755228841
 21
-71.0517129356
 31
0.0
  0
CIRCLE
  5
B5
330
1F
100
AcDbEntity
  8
0
  6
Continuous
 62
     7
370
    25
100
AcDbCircle
 10
-698.5755228841
 20
106.4482870644
 30
0.0
 40
156.4
  0
CIRCLE
  5
B6
330
1F
100
AcDbEntity
  8
0
  6
Continuous
 62
     7
370
    25
100
AcDbCircle
 10
-698.5755228841
 20
106.4482870644
 30
0.0
 40
177.5
  0
LINE
  5
B7
330
1F
100
AcDbEntity
  8
0
  6
Continuous
 62
     7
370
    25
100
AcDbLine
 10
-1093.0755228841
 20
106.4482870644
 30
0.0
 11
-1093.0755228841
 21
283.9482870644
 31
0.0
  0
LINE
  5
B8
330
1F
100
AcDbEntity
  8
0
  6
Continuous
 62
     7
370
    25
100
AcDbLine
 10
-1093.0755228841
 20
-71.0517129356
 30
0.0
 11
-1093.0755228841
 21
106.4482870644
 31
0.0
  0
LINE
  5
B9
330
1F
100
AcDbEntity
  8
0
  6
Continuous
 62
     7
370
    25
100
AcDbLine
 10
-304.0755228841
 20
106.4482870644
 30
0.0
 11
-304.0755228841
 21
283.9482870644
 31
0.0
  0
LINE
  5
BA
330
1F
100
AcDbEntity
  8
0
  6
Continuous
 62
     7
370
    25
100
AcDbLine
 10
-304.0755228841
 20
-71.0517129356
 30
0.0
 11
-304.0755228841
 21
106.4482870644
 31
0.0
  0
INSERT
  5
C6
330
1F
100
AcDbEntity
  8
FORMAT
100
AcDbBlockReference
  2
SW_CENTERMARKSYMBOL_1
 10
-698.5755228841
 20
106.4482870644
 30
0.0
  0
LINE
  5
C7
330
1F
100
AcDbEntity
  8
0
  6
Continuous
 62
     7
370
    25
100
AcDbLine
 10
-154.951922315
 20
-248.2208935984
 30
0.0
 11
-154.951922315
 21
-1037.2208935984
 31
0.0
  0
LINE
  5
C8
330
1F
100
AcDbEntity
  8
0
  6
Continuous
 62
     7
370
    25
100
AcDbLine
 10
200.048077685
 20
-465.2208935984
 30
0.0
 11
200.048077685
 21
-248.2208935984
 31
0.0
  0
LINE
  5
C9
330
1F
100
AcDbEntity
  8
0
  6
Continuous
 62
     7
370
    25
100
AcDbLine
 10
200.048077685
 20
-1037.2208935984
 30
0.0
 11
200.048077685
 21
-820.2208935984
 31
0.0
  0
LINE
  5
CA
330
1F
100
AcDbEntity
  8
0
  6
Continuous
 62
     7
370
    25
100
AcDbLine
 10
200.048077685
 20
-820.2208935984
 30
0.0
 11
416.548077685
 21
-820.2208935984
 31
0.0
  0
LINE
  5
CB
330
1F
100
AcDbEntity
  8
0
  6
Continuous
 62
     7
370
    25
100
AcDbLine
 10
416.548077685
 20
-465.2208935984
 30
0.0
 11
200.048077685
 21
-465.2208935984
 31
0.0
  0
LINE
  5
CC
330
1F
100
AcDbEntity
  8
0
  6
Continuous
 62
     7
370
    25
100
AcDbLine
 10
22.548077685
 20
-642.7208935984
 30
0.0
 11
200.048077685
 21
-820.2208935984
 31
0.0
  0
LINE
  5
CD
330
1F
100
AcDbEntity
  8
0
  6
Continuous
 62
     7
370
    25
100
AcDbLine
 10
200.048077685
 20
-465.2208935984
 30
0.0
 11
22.548077685
 21
-642.7208935984
 31
0.0
  0
LINE
  5
CE
330
1F
100
AcDbEntity
  8
0
  6
Continuous
 62
     7
370
    25
100
AcDbLine
 10
200.048077685
 20
-1037.2208935984
 30
0.0
 11
-154.951922315
 21
-1037.2208935984
 31
0.0
  0
LINE
  5
CF
330
1F
100
AcDbEntity
  8
0
  6
Continuous
 62
     7
370
    25
100
AcDbLine
 10
200.048077685
 20
-248.2208935984
 30
0.0
 11
-154.951922315
 21
-248.2208935984
 31
0.0
  0
LINE
  5
D0
330
1F
100
AcDbEntity
  8
0
  6
Continuous
 62
     7
370
    25
100
AcDbLine
 10
416.548077685
 20
-465.2208935984
 30
0.0
 11
416.548077685
 21
-820.2208935984
 31
0.0
  0
ENDSEC
  0
SECTION
  2
OBJECTS
  0
DICTIONARY
  5
C
330
0
100
AcDbDictionary
281
     1
  3
ACAD_GROUP
350
D
  3
ACAD_LAYOUT
350
1A
  3
ACAD_MLINESTYLE
350
17
  3
ACAD_PLOTSETTINGS
350
19
  3
ACAD_PLOTSTYLENAME
350
E
  3
ACAD_SCALELIST
350
47
  3
DWGPROPS
350
D1
  0
DICTIONARY
  5
D
102
{ACAD_REACTORS
330
C
102
}
330
C
100
AcDbDictionary
281
     1
  0
DICTIONARY
  5
1A
102
{ACAD_REACTORS
330
C
102
}
330
C
100
AcDbDictionary
281
     1
  3
Layout1
350
1E
  3
Layout2
350
26
  3
Model
350
22
  0
DICTIONARY
  5
17
102
{ACAD_REACTORS
330
C
102
}
330
C
100
AcDbDictionary
281
     1
  3
Standard
350
18
  0
DICTIONARY
  5
19
102
{ACAD_REACTORS
330
C
102
}
330
C
100
AcDbDictionary
281
     1
  0
ACDBDICTIONARYWDFLT
  5
E
102
{ACAD_REACTORS
330
C
102
}
330
C
100
AcDbDictionary
281
     1
  3
Normal
350
F
100
AcDbDictionaryWithDefault
340
F
  0
DICTIONARY
  5
47
102
{ACAD_REACTORS
330
C
102
}
330
C
100
AcDbDictionary
281
     1
  3
A0
350
48
  3
A1
350
49
  3
A2
350
4A
  3
A3
350
4B
  3
A4
350
4C
  3
A5
350
4D
  3
A6
350
4E
  3
A7
350
4F
  3
A8
350
50
  3
A9
350
51
  3
B0
350
52
  3
B1
350
53
  3
B2
350
54
  3
B3
350
55
  3
B4
350
56
  3
B5
350
57
  3
B6
350
58
  3
B7
350
59
  3
B8
350
5A
  3
B9
350
5B
  3
C0
350
5C
  3
C1
350
5D
  3
C2
350
5E
  3
C3
350
5F
  3
C4
350
60
  3
C5
350
61
  3
C6
350
62
  3
C7
350
63
  3
C8
350
64
  3
C9
350
65
  3
D0
350
66
  3
D1
350
67
  3
D2
350
68
  0
XRECORD
  5
D1
102
{ACAD_REACTORS
330
C
102
}
330
C
100
AcDbXrecord
280
     1
  1
DWGPROPS COOKIE
  2

  3

  4

  6

  7

  8
b.kav
  9

300
=
301
=
302
=
303
=
304
=
305
=
306
=
307
=
308
=
309
=
 40
0.0
 41
2459935.575602651
 42
2459935.575602651
  1

 90
        0
  0
LAYOUT
  5
1E
102
{ACAD_REACTORS
330
1A
102
}
330
1A
100
AcDbPlotSettings
  1

  2
none_device
  4

  6

 40
0.0
 41
0.0
 42
0.0
 43
0.0
 44
0.0
 45
0.0
 46
0.0
 47
0.0
 48
0.0
 49
0.0
140
0.0
141
0.0
142
1.0
143
1.0
 70
   688
 72
     1
 73
     0
 74
     5
  7

 75
    16
147
1.0
148
0.0
149
0.0
100
AcDbLayout
  1
Layout1
 70
     1
 71
     1
 10
0.0
 20
0.0
 11
420.0
 21
297.0
 12
0.0
 22
0.0
 32
0.0
 14
1.0000000000E+20
 24
1.0000000000E+20
 34
1.0000000000E+20
 15
-1.0000000000E+20
 25
-1.0000000000E+20
 35
-1.0000000000E+20
146
0.0
 13
0.0
 23
0.0
 33
0.0
 16
1.0
 26
0.0
 36
0.0
 17
0.0
 27
1.0
 37
0.0
 76
     0
330
1B
  0
LAYOUT
  5
26
102
{ACAD_REACTORS
330
1A
102
}
330
1A
100
AcDbPlotSettings
  1

  2
none_device
  4

  6

 40
0.0
 41
0.0
 42
0.0
 43
0.0
 44
0.0
 45
0.0
 46
0.0
 47
0.0
 48
0.0
 49
0.0
140
0.0
141
0.0
142
1.0
143
1.0
 70
   688
 72
     1
 73
     0
 74
     5
  7

 75
    16
147
1.0
148
0.0
149
0.0
100
AcDbLayout
  1
Layout2
 70
     1
 71
     2
 10
0.0
 20
0.0
 11
0.0
 21
0.0
 12
0.0
 22
0.0
 32
0.0
 14
0.0
 24
0.0
 34
0.0
 15
0.0
 25
0.0
 35
0.0
146
0.0
 13
0.0
 23
0.0
 33
0.0
 16
1.0
 26
0.0
 36
0.0
 17
0.0
 27
1.0
 37
0.0
 76
     0
330
23
  0
LAYOUT
  5
22
102
{ACAD_REACTORS
330
1A
102
}
330
1A
100
AcDbPlotSettings
  1

  2
none_device
  4
Letter_(8.50_x_11.00_Inches)
  6

 40
6.35
 41
6.35
 42
6.35000508
 43
6.35000508
 44
215.9
 45
279.4
 46
0.0
 47
0.0
 48
0.0
 49
0.0
140
0.0
141
0.0
142
1.0
143
1.0
 70
  1712
 72
     1
 73
     0
 74
     0
  7

 75
     0
147
1.0
148
0.0
149
0.0
100
AcDbLayout
  1
Model
 70
     1
 71
     0
 10
0.0
 20
0.0
 11
279.4
 21
215.9
 12
0.0
 22
0.0
 32
0.0
 14
0.0
 24
0.0
 34
0.0
 15
279.4
 25
215.9
 35
0.0
146
0.0
 13
0.0
 23
0.0
 33
0.0
 16
1.0
 26
0.0
 36
0.0
 17
0.0
 27
1.0
 37
0.0
 76
     0
330
1F
331
29
  0
MLINESTYLE
  5
18
102
{ACAD_REACTORS
330
17
102
}
330
17
100
AcDbMlineStyle
  2
Standard
 70
     0
  3

 62
   256
 51
90.0
 52
90.0
 71
     2
 49
0.5
 62
   256
  6
BYLAYER
 49
-0.5
 62
   256
  6
BYLAYER
  0
ACDBPLACEHOLDER
  5
F
102
{ACAD_REACTORS
330
E
102
}
330
E
  0
SCALE
  5
48
102
{ACAD_REACTORS
330
47
102
}
330
47
100
AcDbScale
 70
     0
300
1:1
140
1.0
141
1.0
290
     1
  0
SCALE
  5
49
102
{ACAD_REACTORS
330
47
102
}
330
47
100
AcDbScale
 70
     0
300
1:2
140
1.0
141
2.0
290
     0
  0
SCALE
  5
4A
102
{ACAD_REACTORS
330
47
102
}
330
47
100
AcDbScale
 70
     0
300
1:4
140
1.0
141
4.0
290
     0
  0
SCALE
  5
4B
102
{ACAD_REACTORS
330
47
102
}
330
47
100
AcDbScale
 70
     0
300
1:5
140
1.0
141
5.0
290
     0
  0
SCALE
  5
4C
102
{ACAD_REACTORS
330
47
102
}
330
47
100
AcDbScale
 70
     0
300
1:8
140
1.0
141
8.0
290
     0
  0
SCALE
  5
4D
102
{ACAD_REACTORS
330
47
102
}
330
47
100
AcDbScale
 70
     0
300
1:10
140
1.0
141
10.0
290
     0
  0
SCALE
  5
4E
102
{ACAD_REACTORS
330
47
102
}
330
47
100
AcDbScale
 70
     0
300
1:16
140
1.0
141
16.0
290
     0
  0
SCALE
  5
4F
102
{ACAD_REACTORS
330
47
102
}
330
47
100
AcDbScale
 70
     0
300
1:20
140
1.0
141
20.0
290
     0
  0
SCALE
  5
50
102
{ACAD_REACTORS
330
47
102
}
330
47
100
AcDbScale
 70
     0
300
1:30
140
1.0
141
30.0
290
     0
  0
SCALE
  5
51
102
{ACAD_REACTORS
330
47
102
}
330
47
100
AcDbScale
 70
     0
300
1:40
140
1.0
141
40.0
290
     0
  0
SCALE
  5
52
102
{ACAD_REACTORS
330
47
102
}
330
47
100
AcDbScale
 70
     0
300
1:50
140
1.0
141
50.0
290
     0
  0
SCALE
  5
53
102
{ACAD_REACTORS
330
47
102
}
330
47
100
AcDbScale
 70
     0
300
1:100
140
1.0
141
100.0
290
     0
  0
SCALE
  5
54
102
{ACAD_REACTORS
330
47
102
}
330
47
100
AcDbScale
 70
     0
300
2:1
140
2.0
141
1.0
290
     0
  0
SCALE
  5
55
102
{ACAD_REACTORS
330
47
102
}
330
47
100
AcDbScale
 70
     0
300
4:1
140
4.0
141
1.0
290
     0
  0
SCALE
  5
56
102
{ACAD_REACTORS
330
47
102
}
330
47
100
AcDbScale
 70
     0
300
8:1
140
8.0
141
1.0
290
     0
  0
SCALE
  5
57
102
{ACAD_REACTORS
330
47
102
}
330
47
100
AcDbScale
 70
     0
300
10:1
140
10.0
141
1.0
290
     0
  0
SCALE
  5
58
102
{ACAD_REACTORS
330
47
102
}
330
47
100
AcDbScale
 70
     0
300
100:1
140
100.0
141
1.0
290
     0
  0
SCALE
  5
59
102
{ACAD_REACTORS
330
47
102
}
330
47
100
AcDbScale
 70
     0
300
1/128" = 1'-0"
140
0.0078125
141
12.0
290
     0
  0
SCALE
  5
5A
102
{ACAD_REACTORS
330
47
102
}
330
47
100
AcDbScale
 70
     0
300
1/64" = 1'-0"
140
0.015625
141
12.0
290
     0
  0
SCALE
  5
5B
102
{ACAD_REACTORS
330
47
102
}
330
47
100
AcDbScale
 70
     0
300
1/32" = 1'-0"
140
0.03125
141
12.0
290
     0
  0
SCALE
  5
5C
102
{ACAD_REACTORS
330
47
102
}
330
47
100
AcDbScale
 70
     0
300
1/16" = 1'-0"
140
0.0625
141
12.0
290
     0
  0
SCALE
  5
5D
102
{ACAD_REACTORS
330
47
102
}
330
47
100
AcDbScale
 70
     0
300
3/32" = 1'-0"
140
0.09375
141
12.0
290
     0
  0
SCALE
  5
5E
102
{ACAD_REACTORS
330
47
102
}
330
47
100
AcDbScale
 70
     0
300
1/8" = 1'-0"
140
0.125
141
12.0
290
     0
  0
SCALE
  5
5F
102
{ACAD_REACTORS
330
47
102
}
330
47
100
AcDbScale
 70
     0
300
3/16" = 1'-0"
140
0.1875
141
12.0
290
     0
  0
SCALE
  5
60
102
{ACAD_REACTORS
330
47
102
}
330
47
100
AcDbScale
 70
     0
300
1/4" = 1'-0"
140
0.25
141
12.0
290
     0
  0
SCALE
  5
61
102
{ACAD_REACTORS
330
47
102
}
330
47
100
AcDbScale
 70
     0
300
3/8" = 1'-0"
140
0.375
141
12.0
290
     0
  0
SCALE
  5
62
102
{ACAD_REACTORS
330
47
102
}
330
47
100
AcDbScale
 70
     0
300
1/2" = 1'-0"
140
0.5
141
12.0
290
     0
  0
SCALE
  5
63
102
{ACAD_REACTORS
330
47
102
}
330
47
100
AcDbScale
 70
     0
300
3/4" = 1'-0"
140
0.75
141
12.0
290
     0
  0
SCALE
  5
64
102
{ACAD_REACTORS
330
47
102
}
330
47
100
AcDbScale
 70
     0
300
1" = 1'-0"
140
1.0
141
12.0
290
     0
  0
SCALE
  5
65
102
{ACAD_REACTORS
330
47
102
}
330
47
100
AcDbScale
 70
     0
300
1-1/2" = 1'-0"
140
1.5
141
12.0
290
     0
  0
SCALE
  5
66
102
{ACAD_REACTORS
330
47
102
}
330
47
100
AcDbScale
 70
     0
300
3" = 1'-0"
140
3.0
141
12.0
290
     0
  0
SCALE
  5
67
102
{ACAD_REACTORS
330
47
102
}
330
47
100
AcDbScale
 70
     0
300
6" = 1'-0"
140
6.0
141
12.0
290
     0
  0
SCALE
  5
68
102
{ACAD_REACTORS
330
47
102
}
330
47
100
AcDbScale
 70
     0
300
1'-0" = 1'-0"
140
12.0
141
12.0
290
     0
  0
ENDSEC
  0
EOF
